First bluesy riff

(/) Slide Up  (\) Slide Down  (h) Hammer On  (p) Pull Off  (b) Bend (r) Release (v) Vibrato


E|--------------------------------------------------
B|--------------------------------------------------
G|--------------------------------------------------
D|--2--2--4--4--2--2--4--4--2--2--4--4--5--2--4--2--
A|--0-----0-----0-----0-----0-----0-----0-----0-----
E|--------------------------------------------------



E|--------------------------------------------------
B|--------------------------------------------------
G|--------------------------------------------------
D|--------------------------------------------------
A|--2--2--4--4--2--2--4--4--2--2--4--4--5--2--4--2--
E|--0-----0-----0-----0-----0-----0-----0-----0-----



E|--------------------------------------------------
B|--------------------------------------------------
G|--------------------------------------------------
D|--2--2--4--4--2--2--4--4--2--2--4--4--5--2--4--2--
A|--0-----0-----0-----0-----0-----0-----0-----0-----
E|--------------------------------------------------



E|--------------------------------------------------
B|--------------------------------------------------
G|--2--2--4--4--2--2--4--4--2--2--4--4--5--2--4--2--
D|--0-----0-----0-----0-----0-----0-----0-----0-----
A|--------------------------------------------------
E|--------------------------------------------------
http://www.guitartabcreator.com
Guitar Tab Creator is intended to store guitar tab created through the tool. It currently does not support in-line text editing. Any text you place in here will be lost. If you need to comment on your tab, please use the "Tab Notes" section located below.