Spring

(/) Slide Up  (\) Slide Down  (h) Hammer On  (p) Pull Off  (b) Bend (r) Release (v) Vibrato
E|--------0--------0--------0--------0--------0--------0--------0--------0--
B|-----0--------0--------0--------0--------0--------0--------0--------0-----
G|--------------------------------------------------------------------------
D|--2--------2--------2--------2--------------------------------------------
A|--------------------------------------0--------0--------0--------0--------
E|--------------------------------------------------------------------------



E|-----------0-----------0-----------0-----------0--------0--------0--------0--------0--
B|--------0-----------0-----------0-----------0--------0--------0--------0--------0-----
G|--------------------------------------------------------------------------------------
D|--2--2--------2--2--------2--2--------2--2--------2--------2--------2--------2--------
A|--------------------------------------------------0--------0--------0--------0--------
E|--------------------------------------------------------------------------------------



E|--------0-----------0--------0-----------0-----------0-----------0-----------0-----------0--
B|-----0-----------0--------0-----------0-----------0-----------0-----------0-----------0-----
G|--------------------------------------------------------------------------------------------
D|--------------------------------------------------------------------------------------------
A|-----------------------------------------------0-----------0-----------2-----------2--------
E|--0--------0--0--------0--------0--0--------0-----------0-----------0-----------0-----------



E|-----------0-----------0-----------0-----------0-----------0-----------0-----
B|--------0-----------0-----------0-----------0-----------0-----------0--------
G|-----------------------------------------------------------------------------
D|-----------------------------------------------------------------------------
A|--2--2--------2--0--------0--0--------0--0--------0--0--------0--------------
E|-----------------------------------------------------------------0-----------



E|-----------0-----------0----------------
B|--------0-----------0-------------------
G|----------------------------------------
D|----------------------------------------
A|----------------------------------------
E|--0--0--------0--0--------0--0----------



E|------------------------5--3--2--0-----
B|---------------------------------------
G|--2--------1------------------------1--
D|--2--------2------------------------2--
A|-----------2------------------------2--
E|---------------------------------------



E|--------4--4--4--4--4--4--4--4--7--7--7--7--7--7--7--7--5--5-----
B|--------5--5--5--5--5--5--5--5--7--7--7--7--7--7--7--7--5--5-----
G|--2--1--6--6--6--6--6--6--6--6--8--8--8--8--8--8--8--8--6--6--1--
D|--2--2--6--6--6--6--6--6--6--6--9--9--9--9--9--9--9--9-----7--2--
A|-----2--4--4--4--4--4--4--4--4--9--9--9--9--9--9--9--9-----7--2--
E|--------4--4--4--4--4--4--4--4--7--7--7--7--7--7--7--7-----5-----
http://www.guitartabcreator.com
Guitar Tab Creator is intended to store guitar tab created through the tool. It currently does not support in-line text editing. Any text you place in here will be lost. If you need to comment on your tab, please use the "Tab Notes" section located below.