Heads Up High

(/) Slide Up  (\) Slide Down  (h) Hammer On  (p) Pull Off  (b) Bend (r) Release (v) Vibrato
E|-----------0--------------
B|--------3-----3-----------
G|-----2-----------2--------
D|-----------------------2--
A|--0-----------------2-----
E|--------------------------



E|-----------0-----------------------------
B|--------3-----3--------------------------
G|-----2-----------2--------2--------2-----
D|-----------------------0--------2--------
A|--0-----------------2--------0--------0--
E|-----------------------------------------



E|---------------
B|---------------
G|-----------7---
D|---9---7---7---
A|---9---7---5---
E|---7---5-------


http://www.guitartabcreator.com
Guitar Tab Creator is intended to store guitar tab created through the tool. It currently does not support in-line text editing. Any text you place in here will be lost. If you need to comment on your tab, please use the "Tab Notes" section located below.