2am

(/) Slide Up  (\) Slide Down  (h) Hammer On  (p) Pull Off  (b) Bend (r) Release (v) Vibrato


E|----------------------
B|----------------------
G|--------9-------------
D|-----6-----6--6/7--6--
A|--7-------------------
E|----------------------



E|-----------------------------------------------------------------------------------------------------
B|-----------------------------------------------------------------------------------------------------
G|-----------------------------------------------------------------------------------------------------
D|-----------------------------------------------------------------------------------------------------
A|-----------------------------------------------------------------------------------------------------
E|--9--9--9--9--9--9--9--9--4--4--4--4--4--4--4--4--2--2--2--2--2--2--2--2--2--2--2--2--2--2--2--2-----



E|--------------------
B|--------------------
G|--------9-----------
D|-----6-----6-----6--
A|--7-----------7-----
E|--------------------
http://www.guitartabcreator.com
Guitar Tab Creator is intended to store guitar tab created through the tool. It currently does not support in-line text editing. Any text you place in here will be lost. If you need to comment on your tab, please use the "Tab Notes" section located below.