Lights by Eliie Goulding. Cover by Kord Semrow

(/) Slide Up  (\) Slide Down  (h) Hammer On  (p) Pull Off  (b) Bend (r) Release (v) Vibrato
E|-----------0-----------------------0-----------------------0-----------------
B|-----0-----------0-----0-----0-----------0-----0-----0-----------0-----------
G|--------0-----------0-----------0-----------0-----------0--------------------
D|--2-----------2-----------0-----------0--------------------------------------
A|--------------------------------------------------3-----------3-----3--2--0--
E|-----------------------------------------------------------------------------



E|-----------------0-----------------------2-----2--3--2-----------------------------------------
B|-----------0-----------------3--------------------------3--0--------0-----------3--------------
G|--------------0--------0-----------0--------------------------0-----------0-----------2--------
D|--2--0--2-----------2-----2-----0-----0-----0--------------------2-----------2-----------2-----
A|-----------------------------------------------------------3-----------3-----------0-----------
E|-----------------------------------------------------------------------------------------------



E|--------------------------0-----------------------2-----2--3--2-----------------------
B|--3-----------------0-----------------3--------------------------3--0--------0--------
G|--------2--------------0--------0-----------0--------------------------0-----------0--
D|-----------2--0--2-----------2-----2-----0-----0-----0--------------------2-----------
A|-----0--------------------------------------------------------------3-----------3-----
E|--------------------------------------------------------------------------------------



E|--------------------------------
B|-----------1-----------1-----0--
G|-----2-----------2--------------
D|--------------------------------
A|--0-----0-----0-----0-----0-----
E|--------------------------------



E|--0--3-----5-----3-----2-----------2-----------3-----0--------------------------------------------
B|-----------------------------3-----------3-----------------3-----------------1-----------1-----0--
G|--------0-----------0-----------2-----------2--------------------0-----2-----------2--------------
D|--2-----------2-----------0-----------0-----------------------------------------------------------
A|--------------------------------------------------3-----3-----3-----0-----0-----0-----0-----0-----
E|--------------------------------------------------------------------------------------------------



E|-----0--3--5-----0-----0--3-----5-----0-----7--5/3--0-----5-----0-----0--3-----5/7-----5--
B|--3--------------------------0-------------------------0--------------------0-------------
G|--------------0----------------------------------------------------0----------------------
D|--------------2--------------------0-------------------------2----------------------0-----
A|-----------2--------2-----------0--------0----------------3--------------------0----------
E|-----------2--------2-----------0--------0------------------------------------------------



E|--2-----3-----2-----3-----2-----3-----5-----0-----2-----3-----2-----3-----2-----3-----5--------
B|-----------------------------------------------------------------------------------------------
G|-----------------------------------------------0-----0-----0-----0-----------------------------
D|-----2-----2-----2-----0-----0-----0-----0-----2-----2-----2-----2-----------------------------
A|-----2-----2-----2-----0-----------0-----0-----3-----3-----3-----3-----0-----0-----0-----0-----
E|-----2-----2-----2-----0-----0-----0-----0-----------------------------------------------------



E|--------------------------------------------------------------------------------------------------
B|--------------------------------------------------------------------------------------------------
G|--0-----------0-----------0-----------0-----------0-----------0-----------2-----------2-----------
D|--------------------------------------------------2--2--2--2--2--2--2--2--------------------------
A|--2--2--2--2--2--2--2--2--0--0--0--0--0--0--0--0--3--3--3--3--3--3--3--3--0--0--0--0--0--0--0--0--
E|--2--2--2--2--2--2--2--2--0--0--0--0--0--0--0--0--------------------------------------------------



E|--3p2--------------------3p2-------------------------------------------
B|----------0----------------------0-------------------------------------
G|---------------------------------------------0-----------0-------------
D|---------------------------------------------2--2--2--2--2--2--2--2--7/
A|--2-2--2--2--2--2--2--2--0-0--0--0--0--0--0--3--3--3--3--3--3--3--3--7-
E|--2-2--2--2--2--2--2--2--0-0--0--0--0--0--0--------------------------7-
http://www.guitartabcreator.com
Guitar Tab Creator is intended to store guitar tab created through the tool. It currently does not support in-line text editing. Any text you place in here will be lost. If you need to comment on your tab, please use the "Tab Notes" section located below.