Shakespeare

(/) Slide Up  (\) Slide Down  (h) Hammer On  (p) Pull Off  (b) Bend (r) Release (v) Vibrato


G|------------------------------------------------
D|--------------------------------------10--9--8--
A|--------0--0--------0--0--------0--0------------
A|--0--0--x--x--0--0--x--x--0--0--x--x------------




G|-----------------------------------------6--
D|-----------------------------------------8--
A|--------0--0--------0--0--------0--0--------
A|--0--0--0--0--0--0--0--0--0--0--0--0--0-----

end with all A strings fuck all
http://www.guitartabcreator.com
Guitar Tab Creator is intended to store guitar tab created through the tool. It currently does not support in-line text editing. Any text you place in here will be lost. If you need to comment on your tab, please use the "Tab Notes" section located below.