PAPERWORK

(/) Slide Up  (\) Slide Down  (h) Hammer On  (p) Pull Off  (b) Bend (r) Release (v) Vibrato


G|--------------------x--------------------x--
D|--------------------x--------------------x--
A|--------------------x--------------5--5--x--
A|--5--5--5--5--5--5--x--5--5--5--5--------x--



Random trem picked all
over the fuckin place
G|--------------------x-----------------7--5-----------------0--
D|--------------------x--------------6--------6--------------0--
A|-----------5--5--5--x-----------5--------------7--5--5--5--0--
A|--5--5--5--5--5--5--x--5--5--5--------------------5--5--5--0--




G|-------?------------------------------------------------------
D|---?--------------?---whatever----------------------------like------------
A|-------?-------?----------------the---fuck---------feel------------------
A|----------------------------------------------you----------------
http://www.guitartabcreator.com
Guitar Tab Creator is intended to store guitar tab created through the tool. It currently does not support in-line text editing. Any text you place in here will be lost. If you need to comment on your tab, please use the "Tab Notes" section located below.