HORSE

(/) Slide Up  (\) Slide Down  (h) Hammer On  (p) Pull Off  (b) Bend (r) Release (v) Vibrato


G|--0--9--9--9--9--9--9--9--9--
D|--5-------------------------- x3
A|-----------------------------
A|-----------------------------




G|--7--7--7--7/19--19--7--7--7/19--19--19------
D|---------------------------------------------
A|--5--5--5--5-17--17--5--5--5-17--17--17--10--
A|-----------------------------------------10--




G|--0--0--0--0--0--0--0--0--0--0--
D|--6--6--6--6--6--8--8--8--8--8--
A|--------------------------------
A|--------------------------------



end riff
G|-------------------------------------------
D|-----------6--8r6-----0-------------------- x5
A|--6--6--8----------8-----9--9--9--9--9--9--
A|--6--6-------------------9--9--9--9--9--9--
http://www.guitartabcreator.com
Guitar Tab Creator is intended to store guitar tab created through the tool. It currently does not support in-line text editing. Any text you place in here will be lost. If you need to comment on your tab, please use the "Tab Notes" section located below.