EAT THE EARTH

(/) Slide Up  (\) Slide Down  (h) Hammer On  (p) Pull Off  (b) Bend (r) Release (v) Vibrato


G|---------------------------------9/17----------------------------13------
D|--13(trempicked)--10r0-----------9-17--13(trempicked)--16r14r13------13--
A|------------------------10b12r0--7-15------------------------------------
A|---------------------------------7-15------------------------------------




G|-----------------------------------------------------------------
D|--5--5--6--6-----------------5--5--6--6--------------------------
A|--------------5--5--6--6--0--------------5--5--6--6--0--0--0-----
A|--------------------------0--------------------------0--0--0-----



END WHEN DRUMS START SLAMMIN
G|-------------------
D|--6r5r0------------
A|---------6r5r0--0--
A|----------------0--
http://www.guitartabcreator.com
Guitar Tab Creator is intended to store guitar tab created through the tool. It currently does not support in-line text editing. Any text you place in here will be lost. If you need to comment on your tab, please use the "Tab Notes" section located below.