CIRCUS

(/) Slide Up  (\) Slide Down  (h) Hammer On  (p) Pull Off  (b) Bend (r) Release (v) Vibrato


MAIN
G|--------------13r11r0--------------13r11r0--
D|--11r0--11r0-----------11r0--11r0-----------
A|--------------------------------------------
A|--------------------------------------------



CHORUS
G|--6-----------------6-----------------
D|-------------11----------------11-----
A|--4--11--10------8--4--11--10------7--
A|--------------------------------------
http://www.guitartabcreator.com
Guitar Tab Creator is intended to store guitar tab created through the tool. It currently does not support in-line text editing. Any text you place in here will be lost. If you need to comment on your tab, please use the "Tab Notes" section located below.