AWL

(/) Slide Up  (\) Slide Down  (h) Hammer On  (p) Pull Off  (b) Bend (r) Release (v) Vibrato


AWL #1
G|------------------------------------------
D|--12--12--12--12--10----------10----------
A|----------------------12--10------12--10--
A|------------------------------------------


AWL #2 - w/fuzz octave (happens mostly at the end)
G|--------------------------------------10--
D|--12--12--12--12--10----------10--12------
A|----------------------12--10--------------
A|------------------------------------------
http://www.guitartabcreator.com
Guitar Tab Creator is intended to store guitar tab created through the tool. It currently does not support in-line text editing. Any text you place in here will be lost. If you need to comment on your tab, please use the "Tab Notes" section located below.