Autumn leaves solo Clapton

(/) Slide Up  (\) Slide Down  (h) Hammer On  (p) Pull Off  (b) Bend (r) Release (v) Vibrato

E|-----------------------------------------------------------------------------------------
B|----------------------------------------------10-12--------------------------------------
G|-15b15b15b15h14-16---------------------7-9\11-------11/9-7-9p7p9p7p9---------------------
D|-------------------16-14p16p14/12-12-9-------------------------------9-7-9-----7-9-------
A|---------------------------------------------------------------------------7/9-----9\7-5-
E|-----------------------------------------------------------------------------------------



E|----------------------------------10-12b12r10p12p10-9-----------------------------------
B|----------------------------10-12--------------------------10---------------10-10-12----
G|---------------------7-9-11---------------------------9/11----11\9-7---9/11----------11\
D|-----------------7-9-------------------------------------------------9------------------
A|-7-5-------5-7\9------------------------------------------------------------------------
E|-----7-5/7------------------------------------------------------------------------------



E|--------------------------10------------------------------------------------------------
B|--------------12--10--12------------------------------12--15---------12--12--15--17--17b
G|--9\7--5--11----------------------------------11--14----------14b14---------------------
D|--------------------------------------12--14--------------------------------------------
A|------------------------------13--14----------------------------------------------------
E|----------------------------------------------------------------------------------------



E|-----------------------------17-----------------------------------------------------------
B|--15------15--17p17--15----------17--17--15------17b17--15--------------------------------
G|------16-----------------16------------------16-------------16--16--14p16--14--16---------
D|-----------------------------------------------------------------------------------14\16--
A|------------------------------------------------------------------------------------------
E|------------------------------------------------------------------------------------------



E|-----------------------------------------------------------------------------------------------
B|--------------------------------------------------------------------10-------------------------
G|--14--16------------------------14--------------------9b9--7-----7------9b9--7-----------------
D|----------16/14--12------14\16------16--14p16p14--12----------9-----------------9--7--9--7-----
A|---------------------14---------------------------------------------------------------------9--
E|-----------------------------------------------------------------------------------------------



E|----------------------------------
B|----------------------------------
G|--9p11p9--9p11r9--9p11p9--9/7-----
D|-------------------------------9--
A|----------------------------------
E|----------------------------------
http://www.guitartabcreator.com
Guitar Tab Creator is intended to store guitar tab created through the tool. It currently does not support in-line text editing. Any text you place in here will be lost. If you need to comment on your tab, please use the "Tab Notes" section located below.