Cadaver Made Abomination pt. 2

(/) Slide Up  (\) Slide Down  (h) Hammer On  (p) Pull Off  (b) Bend (r) Release (v) Vibrato


E|-----------------------------------------------------------------------------
B|-----------------------------------------------------------------------------
G|-----------------------------------------------------------------------------
D|-----------------------------------------------------------------------------
A|--4-----------5-----------4-----------4--4--------4--2-----------4-----------
E|-----3--2--3-----3--2--3-----3--2--3--2--2--0--0--2-----5--3--2-----5--3--2--



E|------------------------------------------------------------------
B|------------------------------------------------------------------
G|------------------------------------------------------------------
D|------------------------------------------------------------------
A|-----------5-----------7-----------8-----------7--0h5h7h8--5h7h8--
E|--0--0--0--5--0--0--0--5--0--0--0--5--0--0--0--5------------------
http://www.guitartabcreator.com
Guitar Tab Creator is intended to store guitar tab created through the tool. It currently does not support in-line text editing. Any text you place in here will be lost. If you need to comment on your tab, please use the "Tab Notes" section located below.