Cadaver Made Abomination pt. 1

(/) Slide Up  (\) Slide Down  (h) Hammer On  (p) Pull Off  (b) Bend (r) Release (v) Vibrato
E|-------------------------------------------------------------------------------
B|-------------------------------------------------------------------------------
G|-------------------------------------------------------------------------------
D|--------------------------------------------------5--3--2----------------------
A|-----------2-----------4-----------5-----------4-----------5--4--2-----------4b
E|--0--0--0--0--0--0--0--2--0--0--0--2--0--0--0--2--------------------5--3--2----



E|--10--8--5--5--4--3--3--1-----------------
B|---------------------------1--3-----------
G|---------------------------------1--2-----
D|------------------------------------------
A|------------------------------------------
E|------------------------------------------



E|--------------13--17--------------------------15--19--------------------------17--21--------------
B|----------15----------15------------------17----------17------------------19----------19----------
G|------14------------------14----------16------------------16----------18------------------18------
D|--13--------------------------13--15--------------------------15--17--------------------------17--
A|--------------------------------------------------------------------------------------------------
E|--------------------------------------------------------------------------------------------------



E|---------------------------------------------------------------------------------------
B|---------------------------------------------------------------------------------------
G|---------------------------------------------------------------------------------7--6--
D|---------------------------------------------------------------------------7--5--------
A|--------7--5--5--7--8-----------7--------7--5--5h8p5--4h7p4--5h8p5--4h7p4--------------
E|--0--0--7--5-----------9--7--5-----0--0--7--5------------------------------------------



E|--------
B|--------
G|--------
D|--------
A|--------
E|--------
http://www.guitartabcreator.com
Guitar Tab Creator is intended to store guitar tab created through the tool. It currently does not support in-line text editing. Any text you place in here will be lost. If you need to comment on your tab, please use the "Tab Notes" section located below.