Trivium - Watch The World Burn

(/) Slide Up  (\) Slide Down  (h) Hammer On  (p) Pull Off  (b) Bend (r) Release (v) Vibrato

Stave 1:

E|-------------------------------------------------------------------------------------
B|-------------------------------------------------------------------------------------
G|--10v--10v--10v--10v----10--9--10--12--10--9--10----10v--10v--10v--10v----10--9--10--
D|-------------------------------------------------------------------------------------
A|-------------------------------------------------------------------------------------
E|-------------------------------------------------------------------------------------

Stave 2:

E|-----------------------------------------13p10------10------------------------------------
B|------------------------------------------------13------13p10h13p10------10---------------
G|--9h10p9h10p9h10p9h10p9h10p9h10--------------------------------------12------12p10h12p10--
D|---------------------------------10-------------------------------------------------------
A|------------------------------------------------------------------------------------------
E|------------------------------------------------------------------------------------------

Stave 3:

E|-------------------------------10--12--12b--10h12p10-----------17p13------13---------------
B|------------------------13b---------------------------13b-------------17------17p13h17p13--
G|------10-----------------------------------------------------------------------------------
D|--12------12p10h12-------------------------------------------------------------------------
A|-------------------------------------------------------------------------------------------
E|-------------------------------------------------------------------------------------------

Stave 4:

E|----------------------------------------------13------13-------------
B|------13------------------------------------------17------17--13--13b
G|--15------15p14h15p14------14----------------------------------------
D|-----------------------15------15p14h15v-----------------------------
A|---------------------------------------------------------------------
E|---------------------------------------------------------------------

http://www.guitartabcreator.com
Guitar Tab Creator is intended to store guitar tab created through the tool. It currently does not support in-line text editing. Any text you place in here will be lost. If you need to comment on your tab, please use the "Tab Notes" section located below.