Syn Gates Solo 2013

(/) Slide Up  (\) Slide Down  (h) Hammer On  (p) Pull Off  (b) Bend (r) Release (v) Vibrato

t: undefined undefined undefined undefined undefined
E|-------------------7----7-8-7------------------7----7-10-8--------------------8-7---
B|--------7-8-7-8-10---10-------------7-8-7-8-10---10----------------7-8-7-8-10-----8-
G|-9--8-9-------------------------8-9--------------------------9-8-9------------------
D|------------------------------------------------------------------------------------
A|------------------------------------------------------------------------------------
E|------------------------------------------------------------------------------------


t:
E|----------------7-8-7-5-------7-12------17-19-20-19-17----------17-20-19-
B|-12-13-10-----8---------5---5--------17----------------17----17----------
G|------------9-------------5-------------------------------17-------------
D|-------------------------------------------------------------------------
A|-------------------------------------------------------------------------
E|-------------------------------------------------------------------------

Stave 1:

E|--20--17----------------------------------------------------17--19--17------------------
B|----------16--------------------------------------------16--------------16--------------
G|--------------17--------------17--16----------------17----------------------17----------
D|------------------19--16--19----------------16--19------------------------------19--16--
A|----------------------------------------------------------------------------------------
E|----------------------------------------------------------------------------------------

http://www.guitartabcreator.com
Guitar Tab Creator is intended to store guitar tab created through the tool. It currently does not support in-line text editing. Any text you place in here will be lost. If you need to comment on your tab, please use the "Tab Notes" section located below.