Smack Talk Solo

(/) Slide Up  (\) Slide Down  (h) Hammer On  (p) Pull Off  (b) Bend (r) Release (v) Vibrato

Stave 1:

E|---------------------------------------------------------------------
B|------------------15b------------------------------------------------
G|----------12--14--14---12--------15--14--12--------------------------
D|--12--14-------------------14----------------14--13--12--------------
A|---------------------------------------------------------13--12--10--
E|---------------------------------------------------------------------

Stave 2:

E|-------------------6p5p3----------------------------------------------------7--8--9--10v--
B|--8--8--x--7--6-----------5p4p3---------------------------------------6--8----------------
G|--7--7--x--6--5------------------4p3p2--------------------------5--7----------------------
D|--6--6--x--5--4-------------------------2v----------------4--7----------------------------
A|--7--7--x--6--5-------------------------------------3--5----------------------------------
E|----------------------------------------------3--6----------------------------------------

Stave 3:

E|----------------8b6--3p1---------------------------
B|---------8--11------------3p1----------------------
G|--7--10------------------------5p3-----------------
D|------------------------------------5p3------------
A|-----------------------------------------5p3-------
E|----------------------------------------------6p3--

http://www.guitartabcreator.com
Guitar Tab Creator is intended to store guitar tab created through the tool. It currently does not support in-line text editing. Any text you place in here will be lost. If you need to comment on your tab, please use the "Tab Notes" section located below.