Children of Bodom - Downfall

(/) Slide Up  (\) Slide Down  (h) Hammer On  (p) Pull Off  (b) Bend (r) Release (v) Vibrato

Stave 1:

E|--------------------15------------------------------------15--17--18--17--15-------------------------------
B|--15----17----18----------18----17----15------15--17--18----------------------18--17--15--17--18-----------
G|-----------------------------------------------------------------------------------------------------------
D|-----------------------------------------------------------------------------------------------------------
A|-----------------------------------------------------------------------------------------------------------
E|-----------------------------------------------------------------------------------------------------------

Stave 2:

E|--15--17--18--17--15------------------------------18p15----------17p13------------12--13----10-----
B|----------------------18--17------15----17----18---------17-------------15-------------------------
G|-------------------------------------------------------------16-------------14---------------------
D|---------------------------------------------------------------------------------------------------
A|---------------------------------------------------------------------------------------------------
E|---------------------------------------------------------------------------------------------------

Stave 3:

E|-----12--13----10-----------10----12----13----13b12----10--
B|-----------------------------------------------------------
G|-------------------10--9-----------------------------------
D|-----------------------------------------------------------
A|-----------------------------------------------------------
E|-----------------------------------------------------------

http://www.guitartabcreator.com
Guitar Tab Creator is intended to store guitar tab created through the tool. It currently does not support in-line text editing. Any text you place in here will be lost. If you need to comment on your tab, please use the "Tab Notes" section located below.