A7x - Demons (solo and outro)

(/) Slide Up  (\) Slide Down  (h) Hammer On  (p) Pull Off  (b) Bend (r) Release (v) Vibrato

Stave 1:

E|--17p13--------------------------------------13------------------10--18p15----------
B|---------15------------------------------15------16----------11-------------16------
G|-------------14----------------------14------------------10---------------------15--
D|-----------------15--------------15-------------------------------------------------
A|---------------------17--16--17-----------------------------------------------------
E|------------------------------------------------------------------------------------

Stave 2:

E|--17p13--------------------------------------13--18------------5--13p10----------
B|---------15------------------------------15-----------------6------------11------
G|-------------14----------------------14------------------5-------------------10--
D|-----------------15--------------15----------------------------------------------
A|---------------------17--16--17--------------------------------------------------
E|---------------------------------------------------------------------------------

Stave 3:

E|------------------------------------------------------------------------
B|------11--15--11--------10--15--10--------11--15--11--------10--15--10--
G|--12----------------11----------------12----------------11--------------
D|------------------------------------------------------------------------
A|------------------------------------------------------------------------
E|------------------------------------------------------------------------

Stave 4:

E|--21-----
B|---------
G|---------
D|---------
A|---------
E|---------

Stave 5:

E|--
B|--
G|--
D|--
A|--
E|--

http://www.guitartabcreator.com
Guitar Tab Creator is intended to store guitar tab created through the tool. It currently does not support in-line text editing. Any text you place in here will be lost. If you need to comment on your tab, please use the "Tab Notes" section located below.