Somewhere - Intro - Bar 7 & 8

(/) Slide Up  (\) Slide Down  (h) Hammer On  (p) Pull Off  (b) Bend (r) Release (v) Vibrato

Stave 1:

E|-----------|------------------------------|------------------------------|--
B|--------8--|------8------8------8------8--|--7--10--7--10--7--10--7--10--|--
G|-----------|--9------9------9------9------|--9------9------9------8------|--
D|-----------|--10-----10-----10-----10-----|------------------------------|--
A|-----------|------------------------------|------------------------------|--
E|-----------|---------8------8------8------|---------8------7-------------|--

Stave 2:

E|-----7--------7--|-----8--------8--|-----8--7-----------|----------------|--
B|-----------8-----|-----------7-----|-----------8--6--5--|----------------|--
G|--------7--------|--------5--------|--------------------|--7--5--2r0--12h|--
D|-----------------|-----------------|--0-----------------|----------------|--
A|--7--------------|--6--------------|--------------------|----------------|--
E|-----------------|-----------------|--------------------|----------------|--

http://www.guitartabcreator.com
Guitar Tab Creator is intended to store guitar tab created through the tool. It currently does not support in-line text editing. Any text you place in here will be lost. If you need to comment on your tab, please use the "Tab Notes" section located below.