Blue Monk

(/) Slide Up  (\) Slide Down  (h) Hammer On  (p) Pull Off  (b) Bend (r) Release (v) Vibrato


E|------------------------------------------------
B|---------------9--9--8--7--6--6--5--4--3--3--2--
G|--------7--10-----------------------------------
D|--7--8------------------------------------------
A|------------------------------------------------
E|------------------------------------------------



E|-----------------
B|-----------------
G|-----------3--6--
D|--8--5--3--------
A|-----------------
E|-----------------



E|-----------------------
B|-----------------------
G|-----------6-----8--9--
D|--8--8--8-----8--------
A|-----------------------
E|-----------------------



E|-----------------------------
B|--6--6--7--8--9--9--8--7--6--
G|-----------------------------
D|-----------------------------
A|-----------------------------
E|-----------------------------



E|-----------------
B|--3--3--4--5--6--
G|-----------------
D|-----------------
A|-----------------
E|-----------------



E|--------------------
B|--------------------
G|--------------------
D|--5-----5-----5-----
A|-----4-----4-----4--
E|--------------------



E|--------------
B|--------------
G|--------------
D|--------------
A|--1--2--3--4--
E|--------------



E|-----------
B|-----------
G|-----------
D|-----------
A|--4--5--6--
E|-----------



E|-----------
B|-----------
G|-----------
D|-----------
A|--6--7--8--
E|-----------



E|---------------------------------------
B|---------------------------------------
G|---------------------------------------
D|---------------------------------------
A|--4--5--6--7--8--8--9--10--11--12--13--
E|---------------------------------------



E|--------------------------------
B|--------------------------------
G|--------------------------------
D|--------------------------------
A|--5--6--7--8--8--7--6--5--4--3--
E|--------------------------------



E|-----------------------------------------
B|-----------------------------------------
G|-----------------------------------------
D|-----------------------------------------
A|--9--10--11--12--13--12--13--14--15--16--
E|-----------------------------------------



E|--------
B|--------
G|--------
D|--------
A|--6--7--
E|--------



E|--------------------------
B|--------------------------
G|--------------------------
D|--------------------------
A|--5--6--7--8--8--7--6--5--
E|--------------------------
http://www.guitartabcreator.com
Guitar Tab Creator is intended to store guitar tab created through the tool. It currently does not support in-line text editing. Any text you place in here will be lost. If you need to comment on your tab, please use the "Tab Notes" section located below.