Like a stone - AudioSlave

(/) Slide Up  (\) Slide Down  (h) Hammer On  (p) Pull Off  (b) Bend (r) Release (v) Vibrato


E|---------|---------|--------|--------------|--
B|---------|---------|--------|--------------|--
G|---------|---------|--------|-----8-----7--|--
D|--8------|-----10--|-----7--|--------7-----|--
A|-----10--|--8------|--5-----|--6-----------|--
E|---------|---------|--------|--------------|--



E|-----------|-----------|-----------|-----------
B|-----------|-----------|-----------|-----------
G|-----------|-----3-----|-----------|-----------
D|-----5-----|-----3-----|-----3-----|-----5-----
A|-----5-----|-----1-----|-----3-----|-----5-----
E|-----3-----|-----------|-----1-----|-----3-----



E|-----------|-----------|-----------|-----------|-----
B|-----------|-----------|-----------|-----------|-----
G|-----8-----|-----------|-----------|-----------|-----
D|-----8-----|-----5-----|-----3-----|-----5-----|-----
A|-----6-----|-----5-----|-----3-----|-----5-----|-----
E|-----6-----|-----3-----|-----1-----|-----3-----|-----



E|-----------|-----------|-----------|-----------|-----
B|-----------|-----------|-----------|-----------|-----
G|-----8-----|-----------|-----7-----|-----7-----|-----
D|-----8-----|-----5-----|-----7-----|-----7-----|-----
A|-----6-----|-----5-----|-----5-----|-----5-----|-----
E|-----6-----|-----3-----|-----5-----|-----------|-----



E|------------------|-----------------
B|------------------|-----------------
G|------------------|-----------------
D|-----8------------|-----------------
A|-----------10-----|-----------------
E|------------------|-----------------
http://www.guitartabcreator.com
Guitar Tab Creator is intended to store guitar tab created through the tool. It currently does not support in-line text editing. Any text you place in here will be lost. If you need to comment on your tab, please use the "Tab Notes" section located below.