Spencer's riff 3

(/) Slide Up  (\) Slide Down  (h) Hammer On  (p) Pull Off  (b) Bend (r) Release (v) Vibrato

E|--------------------------5----5-7-11b--5-7-7-9-11----------------------------------------
B|---------------3-5--5/7----9--7---------5-7-7-9-11--12b-12b-12b-12b-10\9v--8\6-6\4-4\2-1--
G|----------------4------6-7--------------5-7-7-9-11----------------------------------------
D|------------------------------------------------------------------------------------------
A|-----5-7----5-3---------------------------------------------------------------------------
E|--5-7---7--5-3----------------------------------------------------------------------------



E|--3---5--5-5-5-5-5---------------xxxxxxxxx--x--
B|---2-5---7-7-7-7-7---------------xxxxxxxxx--x--
G|---------6-6-6-6-6---------------xxxxxxxxx--x--
D|---------7-7-7-7-7-7-7-7-7-7--5--xxxxxxxxx--x--
A|---------5-5-5-5-5-7-7-7-7-7--5--xxxxxxxxx--x--
E|---------5-5-5-5-5-5-5-5-5-5--3--xxxxxxxxx--x--
http://www.guitartabcreator.com
Guitar Tab Creator is intended to store guitar tab created through the tool. It currently does not support in-line text editing. Any text you place in here will be lost. If you need to comment on your tab, please use the "Tab Notes" section located below.