Black Raindrop Demo

(/) Slide Up  (\) Slide Down  (h) Hammer On  (p) Pull Off  (b) Bend (r) Release (v) Vibrato

E|----------------------------------------------------------------------------------
B|----------------------------------------------------------------------------------
G|----------------------------------------------------------------------------------
D|----------------------------------------------------------------------------------
A|--11--11--11--14--11--13--13--11--13--13--11--14--14--11--13--13--11--13--13--11--
E|--0---0---0---0---0---0---0---0---0---0---0---0---0---0---0---0---0---0---0---0---



E|---------------
B|---------------
G|---------------
D|---------------
A|--11--9--7-----
E|--9---7--5--4--



E|--------------------
B|--------------------
G|--------------------
D|--------------------
A|--------------------
E|--2--1--0--2--1--0--



E|-----------------------------------------------------------------------------------
B|-----------------------------------------------------------------------------------
G|-----------------------------------------------------------------------------------
D|-----------------------------------------------------------------------------------
A|-----------------------------------------------------------------------------------
E|--2--2--2--2--2--2--2--2--1--1--1--1--1--1--1--1--0--0--0--0--0--0--0--0--0--0--0--



E|-----------------------------------------------------------------------------------
B|-----------------------------------------------------------------------------------
G|-----------------------------------------------------------------------------------
D|-----------------------------------------------------------------------------------
A|-----------------------------------------------------------------------------------
E|--2--2--2--2--2--2--2--2--1--1--1--1--1--1--1--1--0--0--0--0--0--0--0--0--0--0--0--



E|--------------------------------------------------
B|--------------------------------------------------
G|--------------------------------------------------
D|--------------------------------------------------
A|--------------------------------------------------
E|--2--1--0--6--6--6--6--6--6--6--6--6--6--6--6--6--



E|-----------------
B|-----------------
G|--0--------------
D|--------2-----2--
A|-----2-----------
E|-----------0-----



E|--------------------------------------------------
B|--------------------------------------------------
G|--------------------------------------------------
D|--------------------------------------------------
A|--------------------------------------------------
E|--6--6--6--6--6--6--6--6--6--6--6--6--6--6--6--6--



E|--------------0--0--0--0--0--0--
B|--0--0--0--0--1--1--0--1--1--0--
G|--1--1--1--1--0--0--0--2--2--0--
D|--2--2--2--2--2--2--0--2--2--0--
A|--2--2--2--2--3--3--0--0--0--0--
E|--0--0--0--0--------0--------0--



E|--0--0--0--0--0-----------------
B|--1--1--1--1--0-----------------
G|--0--0--0--0--0--0--0--0--------
D|--2--2--2--2--0--2--2--2--1-----
A|--3--3--3--3--0--2--2--2--1-----
E|--------------0--0--0--0-----0--



E|-----
B|-----
G|-----
D|-----
A|-----
E|--0--



E|-----------------------------------------------------------------------------
B|-----------------------------------------------------------------------------
G|-----------------------------------------------------------------------------
D|-----------------------------------------------------------------------------
A|--------------------------------------------------------------------------2--
E|--2--2--2--2--2--2--2--2--1--1--1--1--1--1--1--1--0--0--0--0--0--0--0--0--0--



E|-----------
B|-----------
G|-----------
D|-----------
A|--4--3--2--
E|--2--1--0--



E|--------------------------------------------------------------------------
B|--------------------------------------------------------------------------
G|--------------------------------------------------------------------------
D|--------------------------------------------------------------------------
A|--4--4--4--4--4--4--4--4--3--3--3--3--3--3--3--3--2--2--2--2--2--2--2--2--
E|--2--2--2--2--2--2--2--2--1--1--1--1--1--1--1--1--0--0--0--0--0--0--0--0--



E|-----------------------
B|-----------------------
G|-----------------------
D|-----------------------
A|--2--2--3--3--2--2--3--
E|--0--0--1--1--0--0--1--



E|--
B|--
G|--
D|--
A|--
E|--
http://www.guitartabcreator.com
Guitar Tab Creator is intended to store guitar tab created through the tool. It currently does not support in-line text editing. Any text you place in here will be lost. If you need to comment on your tab, please use the "Tab Notes" section located below.