Hillsong - You (B)

(/) Slide Up  (\) Slide Down  (h) Hammer On  (p) Pull Off  (b) Bend (r) Release (v) Vibrato

Intro
E|-------------------
B|-------------------
G|-------------------
D|--9--11--13--9-----
A|----------------9--
E|-------------------


Alt Intro Arpeggio
E|--------------------
B|--------------------
G|--------------------
D|--9-----------------
A|-----9--7--6--7--9--
E|--------------------
http://www.guitartabcreator.com
Guitar Tab Creator is intended to store guitar tab created through the tool. It currently does not support in-line text editing. Any text you place in here will be lost. If you need to comment on your tab, please use the "Tab Notes" section located below.