Chinaski - Stejně jako já (Intro)

(/) Slide Up  (\) Slide Down  (h) Hammer On  (p) Pull Off  (b) Bend (r) Release (v) Vibrato


E|------------------------------10---|---------------------------------------------------------|---
B|---------7---x---7---7h8h10---10---|---------8---x---8---8-----------8---8-------------------|---
G|---5/7---7---x---7---7-------------|---5/7---7---x---7---9p7---5/7---7---7---7h9p7-------7---|---
D|-----------------------------------|-------------------------------------------------9-------|---
A|-----------------------------------|---------------------------------------------------------|---
E|-----------------------------------|---------------------------------------------------------|---



E|------------------------------10---------------------------|---
B|---------7---x---7---7h8h10---10---8---8---8---8---8---8---|---
G|---5/7---7---x---7---7-------------7---7---7---5---5---5---|---
D|-----------------------------------5---5---5---5---5---5---|---
A|-----------------------------------------------------------|---
E|-----------------------------------------------------------|---
http://www.guitartabcreator.com
Guitar Tab Creator is intended to store guitar tab created through the tool. It currently does not support in-line text editing. Any text you place in here will be lost. If you need to comment on your tab, please use the "Tab Notes" section located below.