Resistance - Refreng

(/) Slide Up  (\) Slide Down  (h) Hammer On  (p) Pull Off  (b) Bend (r) Release (v) Vibrato


E|--3--3--3--3--3--3--3--3--|--1--1--1--1--1--1--1--1--|--0--0--0--0--0--0--1--1--|--
B|--1--1--1--1--1--1--1--1--|--1--1--1--1--1--1--1--1--|--1--1--1--1--1--1--1--1--|--
G|--------------------------|--------------------------|--------------------------|--
D|--------------------------|--------------------------|--------------------------|--
A|--------------------------|--------------------------|--------------------------|--
E|--------------------------|--------------------------|--------------------------|--



E|--3--3--3--3--3--3--3--3--|--3--3--3--3--3--3--3--3--|--1--1--1--1--1--1--1--1--|--
B|--1--1--1--1--1--1--1--1--|--1--1--1--1--1--1--1--1--|--1--1--1--1--0--0--0--0--|--
G|--------------------------|--------------------------|--------------------------|--
D|--------------------------|--------------------------|--------------------------|--
A|--------------------------|--------------------------|--------------------------|--
E|--------------------------|--------------------------|--------------------------|--



E|--------------------------|--------------------------|--------------------------|--
B|--1--1--1--1--1--1--1--1--|--3--3--3--3--3--3--3--3--|--5--5--5--5--5--5--5--5--|--
G|--2--2--2--2--2--2--2--2--|--4--4--4--4--4--4--4--4--|--5--5--5--5--7--7--7--7--|--
D|--------------------------|--------------------------|--------------------------|--
A|--------------------------|--------------------------|--------------------------|--
E|--------------------------|--------------------------|--------------------------|--



E|--------------------------|--------------------------|--------------------------|--
B|--5--5--5--5--5--5--5--5--|--6--6--6--6--6--6--6--6--|--6--6--6--6--6--6--6--6--|--
G|--5--5--5--5--4--4--4--4--|--5--5--5--5--5--5--5--5--|--4--4--4--4--4--4--4--4--|--
D|--------------------------|--------------------------|--------------------------|--
A|--------------------------|--------------------------|--------------------------|--
E|--------------------------|--------------------------|--------------------------|--



E|------------------------|------------------------|--
B|----6--6--6--6----6--6--|--6----6--6--6--6----5--|--
G|----5--5--4--5----5--4--|--5----5--4--5--5----4--|--
D|------------------------|------------------------|--
A|------------------------|------------------------|--
E|------------------------|------------------------|--
http://www.guitartabcreator.com
Guitar Tab Creator is intended to store guitar tab created through the tool. It currently does not support in-line text editing. Any text you place in here will be lost. If you need to comment on your tab, please use the "Tab Notes" section located below.