PUNK

(/) Slide Up  (\) Slide Down  (h) Hammer On  (p) Pull Off  (b) Bend (r) Release (v) Vibrato

Guitar 1
E|---------------------------------------|
B|---------------------------------------|
G|---------------------------------------|
D|-9-------9-------9-------9-------9---9-| REPEAT X4 GUITAR 2 COMES IN, THEN REPEAT X4
A|-7--7-7--7--7-7--7--7-7--7--7-7--7-7-7-|
E|---------------------------------------|


Guitar 2
E|---------------------------------------|
B|---------------------------------------|
G|-999~~~~~~~~~~~~~~~~~~~~~~~~~~~~~~~~~~~|
D|-999~~~~~~~~~~~~~~~~~~~~~~~~~~~~~~~~~~~|
A|-777~~~~~~~~~~~~~~~~~~~~~~~~~~~~~~~~~~~|
E|---------------------------------------|




Guitar 1
E|-----------------------------------------------------------------------|
B|-----------------------------------------------------------------------|
G|-9------11-------9-------8-------9-------9-------9-------9-------9---9-|
D|-9-------9-------9-------9-------9-------9-------9-------9-------9---9-| X4
A|-7--7-7--7--7-7--7--7-7--7--7-7--7--7-7--7--7-7--7--7-7--7--7-7--7-7-7-|
E|-----------------------------------------------------------------------|


Guitar 2
E|---------------------------------------------------------------|
B|---------------------------------------------------------------|
G|---------------------------------------------------------------|
D|-9-------9-------9-------9-------9-------9-------9-------9---9-| X4
A|-7--7-7--7--7-7--7--7-7--7--7-7--7--7-7--7--7-7--7--7-7--7-7-7-|
E|---------------------------------------------------------------|



E|--
B|--
G|--
D|--
A|--
E|--



E|--
B|--
G|--
D|--
A|--
E|--



E|--
B|--
G|--
D|--
A|--
E|--



E|--
B|--
G|--
D|--
A|--
E|--



E|--
B|--
G|--
D|--
A|--
E|--



E|--
B|--
G|--
D|--
A|--
E|--



E|--
B|--
G|--
D|--
A|--
E|--



E|--
B|--
G|--
D|--
A|--
E|--



E|--
B|--
G|--
D|--
A|--
E|--



E|--
B|--
G|--
D|--
A|--
E|--



E|--
B|--
G|--
D|--
A|--
E|--



E|--
B|--
G|--
D|--
A|--
E|--



E|--
B|--
G|--
D|--
A|--
E|--



E|--
B|--
G|--
D|--
A|--
E|--



E|--
B|--
G|--
D|--
A|--
E|--



E|--
B|--
G|--
D|--
A|--
E|--



E|--
B|--
G|--
D|--
A|--
E|--



E|--
B|--
G|--
D|--
A|--
E|--



E|--
B|--
G|--
D|--
A|--
E|--



E|--
B|--
G|--
D|--
A|--
E|--



E|--
B|--
G|--
D|--
A|--
E|--
http://www.guitartabcreator.com
Guitar Tab Creator is intended to store guitar tab created through the tool. It currently does not support in-line text editing. Any text you place in here will be lost. If you need to comment on your tab, please use the "Tab Notes" section located below.