GCSE Music 1

(/) Slide Up  (\) Slide Down  (h) Hammer On  (p) Pull Off  (b) Bend (r) Release (v) Vibrato

START OF SEQUENCE 1

E|-9-----9-----9-----9-----10------10-----10-----10------9-----9-----9------|
B|---8-----8-----8-----8------9-------9------9------9------8-----8-----8----|
G|-----9-----9-----9-----9------10------10-----10-----10-----9-----9-----9--|
D|-7-----7-----7-----7------8-------8------8------8------7-----7-----7------|
A|--------------------------------------------------------------------------|
E|--------------------------------------------------------------------------|



E|-10-----10-----10-----10-9-8-7-----7-----7-----7-----6-----6-----6-----6-----|
B|----9------9------9------------6-----6-----6-----6-----5-----5-----5-----5---|
G|------10-----10-----10-----------7-----7-----7-----7-----6-----6-----6-----6-|
D|--8------8------8------8-7-6-5-----5-----5-----5-----4------4-----4-----4----|
A|-----------------------------------------------------------------------------|
E|-----------------------------------------------------------------------------|



E|-5-----5-----5-----5-----5-----6-----5-----6----|
B|---4-----4-----4-----4-----4-----4-----4-----4--|
G|-----5-----5-----5-----5-----5-----5-----5-----5|
D|-3-----3-----3-----3-----3-----3-----3-----3----|
A|------------------------------------------------|
E|------------------------------------------------|



E|-9-----9----10-----9-----9-----9----10-----9----|
B|---8-----8-----8-----8-----8-----8-----8-----8--|
G|-----9-----9-----9-----9-----9-----9-----9-----9|
D|-7-----7-----7-----7-----7-----7-----7-----7----|
A|------------------------------------------------|
E|------------------------------------------------|



E|-7-----7-----8-----7-----7-----7-----8-----7----|
B|---6-----6-----6-----6-----6-----6-----6-----6--|
G|-----7-----7-----7-----7-----7-----7-----7-----7|
D|-5-----5-----5-----5-----5-----5-----5-----5----|
A|------------------------------------------------|
E|------------------------------------------------|



E|-5-----5-----6-----5-----5-----6-----5-----6----|
B|---4-----4-----4-----4-----4-----4-----4-----4--|
G|-----5-----5-----5-----5-----5-----5-----5-----5|
D|-3-----3-----3-----3-----3-----3-----3-----3----|
A|------------------------------------------------|
E|------------------------------------------------|



E|-9-----9----10-----7-----9----10-----9-----7-----9-----9----10----10------|
B|---8-----8-----8-----8-----8-----8-----8-----8-----8-----8-----8-----8----|
G|-----9-----9-----9-----9-----9-----9-----9-----9-----9-----9-----9-----9--|
D|-7-----7-----7-----7-----7-----7-----7-----7-----7-----7-----7-----7------|
A|--------------------------------------------------------------------------|
E|--------------------------------------------------------------------------|



E|-9-----9-----9-----9----|
B|---8-----8-----8-----8--|
G|-----9-----9-----9-----9|
D|-7-----7-----7-----7----|
A|------------------------|
E|------------------------|



E|-7-----7-----8-----5-----7-----8-----7-----5-----7-----7-----8-----8-----|
B|---6-----6-----6-----6-----6-----6-----6-----6-----6-----6-----6-----6---|
G|-----7-----7-----7-----7-----7-----7-----7-----7-----7-----7-----7-----7-|
D|-5-----5-----5-----5-----5-----5-----5-----5-----5-----5-----5-----5-----|
A|-------------------------------------------------------------------------|
E|-------------------------------------------------------------------------|



E|-7-----7-----7-----7----|
B|---6-----6-----6-----6--|
G|-----7-----7-----7-----7|
D|-5-----5-----5-----5----|
A|------------------------|
E|------------------------|



E|-5-----------5-----------5-----------5-----------6-----------6----------|
B|---4-------4---4-------4---4-------4---4-------4---5-------5---5-------5|
G|-----5---5-------5---5-------5---5-------5---5-------6---6-------6---6--|
D|-3-----3-----3-----3-----3-----3-----3-----3-----4-----4-----4-----4----|
A|------------------------------------------------------------------------|
E|------------------------------------------------------------------------|



E|-7-----------7-----------8-----------8-----------9-----------9-----------10----9----|
B|---6-------6---6-------6---7-------7---7-------7---8-------8---8-------8--8----8----|
G|-----7---7-------7---7-------8---8-------8---8-------9---9-------9---9----9----9----| END OF
D|-5-----5-----5-----5-----6-----6-----6-----6-----7-----7-----7-----7------7----7----| SEQUENCE
A|------------------------------------------------------------------------------------| 1
E|------------------------------------------------------------------------------------|



START OF SEQUENCE 2

E|--------------------------------|
B|--------------------------------|
G|-------6-------4-------2-------1|
D|-----7-------5-------3-------2--| Repeat (x2)
A|---7-------5-------3-------2----|
E|-5-------3-------1-------0------|



E|-------------------------------------------|
B|-------------------------------------------|
G|-------6-------4-------2-------1-2-1-------|
D|-----7-------5-------3-------2-------2-----|
A|---7-------5-------3-------2-----------2---|
E|-5-------3-------1-------0---------------0-|



E|-------------------------------------------------------------------------|
B|-------------------------------------------------------------------------|
G|-------6-6h7p6------------4-4h5p4------------2-2h3p2------------2p1------|
D|-----7---------7--------5---------5--------3---------3--------2-----2----| REPEAT (X3)
A|---7-------------7----5-------------5----3-------------3----2---------2--|
E|-5------------------3------------------1------------------0-------------0|



E|-----------------------------------|
B|-------2-------4--------6--------4-|
G|-----3-------5--------7--------5---| REPEAT (X3)
D|---3-------5--------7--------5-----|
A|-1-------3--------5--------3-------|
E|-----------------------------------|



E|-----------------|
B|-------2-------1-|
G|-----3-------2---| REPEAT (X4)
D|---3-------2-----|
A|-1-------0-------|
E|-----------------|



E|-0-|
B|-2-| END OF SEQUENCE 2
G|-2-|
D|-2-|
A|-0-|
E|---|
Guitar Tab Creator is intended to store guitar tab created through the tool. It currently does not support in-line text editing. Any text you place in here will be lost. If you need to comment on your tab, please use the "Tab Notes" section located below.