You are my God my King

(/) Slide Up  (\) Slide Down  (h) Hammer On  (p) Pull Off  (b) Bend (r) Release (v) Vibrato

E|-------------|-------------------|-------------|---------------|-
B|-------------|-------------------|-------------|---------------|-
G|-6-4---------|-------------------|-6-4---------|---------4-4-6-|-
D|-----6-4-2-4-|-------2-------2-4-|-----6-4-2-4-|-5-5-4-4-------|-
A|-------------|-0-2-4---4-2-4-----|-------------|---------------|-
E|-------------|-------------------|-------------|---------------|-



E|-------------|-------------------|-------------|---------------------|-
B|-------------|-------------------|-------------|---------------------|-
G|-6-4---------|-------------------|-6-4---------|---------------------|-
D|-----6-4-2-4-|-------2-------2-4-|-----6-4-2-4-|-5-4---4-------------|-
A|-------------|-0-2-4---4-2-4-----|-------------|-----7---7-4-7-4---4-|-
E|-------------|-------------------|-------------|-----------------7---|-



E|-------------|-----4---------|-------------|---------------|-
B|-5-4---------|-5-7---7-5---7-|-5-4---------|---------4-4-5-|-
G|-----6-4---6-|-----------6---|-----6-4---6-|-5-5-4-4-------|-
D|---------6---|---------------|---------6---|---------------|-
A|-------------|---------------|-------------|---------------|-
E|-------------|---------------|-------------|---------------|-



E|-------------|-----4---------|-------------|---------------------|-
B|-5-4---------|-5-7---7-5---7-|-5-4---------|-5-4---4-------------|-
G|-----6-4---6-|-----------6---|-----6-4---6-|-----6---6-4-6-4---6-|-
D|---------6---|---------------|---------6---|-----------------6---|-
A|-------------|---------------|-------------|---------------------|-
E|-------------|---------------|-------------|---------------------|-



E|---------------------|-
B|---------------------|-
G|-5-4---4-------------|-
D|-----7---7-4-7-4---4-|-
A|-----------------7---|-
E|---------------------|-
http://www.guitartabcreator.com
Guitar Tab Creator is intended to store guitar tab created through the tool. It currently does not support in-line text editing. Any text you place in here will be lost. If you need to comment on your tab, please use the "Tab Notes" section located below.