O Come all ye faithful

(/) Slide Up  (\) Slide Down  (h) Hammer On  (p) Pull Off  (b) Bend (r) Release (v) Vibrato

E|--------------------|--0-----0--1--0-----|-----------------------0--|--------------|--
B|--1--1-----1--3-----|-----3-----------3--|--1--1--0-----0--1--3-----|--0-----------|--
G|--------0--------0--|--------------------|-----------2--------------|-----2--0--0--|--
D|--------------------|--------------------|--------------------------|--------------|--
A|--------------------|--------------------|--------------------------|--------------|--
E|--------------------|--------------------|--------------------------|--------------|--



E|--3--1--0--1--0--|-----0-----------------|--
B|-----------------|--3-----1--3--0--------|--
G|-----------------|-----------------2--0--|--
D|-----------------|-----------------------|--
A|-----------------|-----------------------|--
E|-----------------|-----------------------|--



E|-----------------------|--0--0-----0--1--0-----|--0--1--0--------------1--|--0-----------|--
B|--1--1--0--1--3--1-----|--------3-----------3--|-----------3--1--0--1-----|-----3--1--1--|--
G|--------------------0--|-----------------------|--------------------------|--------------|--
D|-----------------------|-----------------------|--------------------------|--------------|--
A|-----------------------|-----------------------|--------------------------|--------------|--
E|-----------------------|-----------------------|--------------------------|--------------|--
http://www.guitartabcreator.com
Guitar Tab Creator is intended to store guitar tab created through the tool. It currently does not support in-line text editing. Any text you place in here will be lost. If you need to comment on your tab, please use the "Tab Notes" section located below.