A major Scale

(/) Slide Up  (\) Slide Down  (h) Hammer On  (p) Pull Off  (b) Bend (r) Release (v) Vibrato


E|--------------------------|--------------------------|--------------------2--3--|--
B|--------------------------|--------------------------|-----------2--4--6--------|--
G|-----------------------2--|--------------------------|--2--4--6-----------------|--
D|--------------2--4--5-----|-----------------4--5--7--|--------------------------|--
A|-----2--4--5--------------|--------4--5--7-----------|--------------------------|--
E|--5-----------------------|--5--7--------------------|--------------------------|--



E|-----------------------------|--
B|----------------------9--10--|--
G|------------7--9--11---------|--
D|--7--9--11-------------------|--
A|-----------------------------|--
E|-----------------------------|--
http://www.guitartabcreator.com
Guitar Tab Creator is intended to store guitar tab created through the tool. It currently does not support in-line text editing. Any text you place in here will be lost. If you need to comment on your tab, please use the "Tab Notes" section located below.