G Major Scale

(/) Slide Up  (\) Slide Down  (h) Hammer On  (p) Pull Off  (b) Bend (r) Release (v) Vibrato


E|--------------------------|--------------------------|--
B|--------------------------|--------------------------|--
G|--------------------------|--------------------------|--
D|-----------------2--4--5--|--------------------4--5--|--
A|--------2--3--5-----------|-----------3--5--7--------|--
E|--3--5--------------------|--3--5--7-----------------|--



E|--------------------------|--|--------------------------|-----
B|-----------------5--7--8--|--|--------------------7--8--|-----
G|--------4--5--7-----------|--|-----------5--7--9--------|-----
D|--5--7--------------------|--|--5--7--9-----------------|-----
A|--------------------------|--|--------------------------|-----
E|--------------------------|--|--------------------------|-----
http://www.guitartabcreator.com
Guitar Tab Creator is intended to store guitar tab created through the tool. It currently does not support in-line text editing. Any text you place in here will be lost. If you need to comment on your tab, please use the "Tab Notes" section located below.