Em Blues 6/8

(/) Slide Up  (\) Slide Down  (h) Hammer On  (p) Pull Off  (b) Bend (r) Release (v) Vibrato


E|---------|-----------|---|-------------|---------|-------10----10----|-15-14-12----------|-
B|-----7-8-|-10-10-8-7-|---|-8-7---------|-----7-8-|-10-12----12----12-|----------15-12-15-|-
G|-9-9-----|-----------|-9-|-----9-7---7-|-9-9-----|-------------------|-------------------|-
D|---------|-----------|---|---------9---|---------|-------------------|-------------------|-
A|---------|-----------|---|-------------|---------|-------------------|-------------------|-
E|---------|-----------|---|-------------|---------|-------------------|-------------------|-



E|---------|---|-------|---------|-------|---|-------|-
B|---5-7-8-|-7-|-5---5-|-8-7-5---|---7-8-|-7-|-8-7---|-
G|-5-------|---|---7---|-------7-|-5-----|---|-----9-|-
D|---------|---|-------|---------|-------|---|-------|-
A|---------|---|-------|---------|-------|---|-------|-
E|---------|---|-------|---------|-------|---|-------|-
http://www.guitartabcreator.com
Guitar Tab Creator is intended to store guitar tab created through the tool. It currently does not support in-line text editing. Any text you place in here will be lost. If you need to comment on your tab, please use the "Tab Notes" section located below.