E minor diagonal pattern

(/) Slide Up  (\) Slide Down  (h) Hammer On  (p) Pull Off  (b) Bend (r) Release (v) Vibrato

E|-----------------|-----------------|-----------------|-----------------|-
B|-----------------|-----------------|-----------------|-----------------|-
G|-----------4---5-|-4-7-5-4---------|---------------4-|---5-4-----------|-
D|---5-4-7-5---7---|---------7-5-4---|---4---5-4-7-5---|-7-----7-5-4-----|-
A|-7---------------|---------------7-|-5---7-----------|-------------7-5-|-
E|-----------------|-----------------|-----------------|-----------------|-



E|-----------------|-----------------|-----------------|---------------|-
B|-----------------|-----------------|-----------------|---------------|-
G|---------------2-|---4-2-----------|-----------------|---2---4-2-5-4-|-
D|---2---4-2-5-4---|-5-----5-4-2-----|---1---2-1-4-2-5-|-4---5---------|-
A|-3---5-----------|-------------5-3-|-2---4-----------|---------------|-
E|-----------------|-----------------|-----------------|---------------|-



E|------------7----8-|-7-10-8-7----------|----------------7-|----8-7------------|-
B|---8-7-10-8---10---|----------10-8-7---|---7---8-7-10-8---|-10-----10-8-7-----|-
G|-9-----------------|-----------------9-|-7---9------------|---------------9-7-|-
D|-------------------|-------------------|------------------|-------------------|-
A|-------------------|-------------------|------------------|-------------------|-
E|-------------------|-------------------|------------------|-------------------|-



E|---------------5-|---7-5-----------|-----------------|---5---7-5-8-7-|-
B|---5---7-5-8-7---|-8-----8-7-5-----|---4---5-4-7-5-8-|-7---8---------|-
G|-5---7-----------|-------------7-5-|-4---6-----------|---------------|-
D|-----------------|-----------------|-----------------|---------------|-
A|-----------------|-----------------|-----------------|---------------|-
E|-----------------|-----------------|-----------------|---------------|-
http://www.guitartabcreator.com
Guitar Tab Creator is intended to store guitar tab created through the tool. It currently does not support in-line text editing. Any text you place in here will be lost. If you need to comment on your tab, please use the "Tab Notes" section located below.