D minor Ballad

(/) Slide Up  (\) Slide Down  (h) Hammer On  (p) Pull Off  (b) Bend (r) Release (v) Vibrato

(W|WW) Whole (H|HH) Half (Q|QQ) Quarter (E|EE) 8th (S|SS) 16th (T|TT) 32nd (X|XX) 64th

t: W WW undefined W undefined WW WW W WW undefined WW WW undefined WW WW undefined WW WW WW WW undefined WW undefined
E|------|---|-------|----|----17-|-15-13-|-12-------12-|----|-
B|---10-|-8-|----15-|-13-|-------|-------|----15-14----|-15-|-
G|-7----|---|-10----|----|-15----|-------|-------------|----|-
D|------|---|-------|----|-------|-------|-------------|----|-
A|------|---|-------|----|-------|-------|-------------|----|-
E|------|---|-------|----|-------|-------|-------------|----|-


t: W WW undefined W W W WW W WW undefined W WW undefined WW WW undefined WW WW WW WW WW W
E|------|---|------|----|---17-|-15-13-|-12-------12----|-
B|---10-|-8-|---15-|-13-|------|-------|----15-14----15-|-
G|------|---|------|----|------|-------|----------------|-
D|------|---|------|----|------|-------|----------------|-
A|-5----|---|-8----|----|-1----|-------|----------------|-
E|------|---|------|----|------|-------|----------------|-


t: none nonenone undefined none W nonenone nonenone W nonenone undefined nonenone nonenone undefined nonenone nonenone undefined nonenone nonenone nonenone nonenone nonenone W
E|---10-|-8-|----13-|-12-|----20-|-18-17-|----------------|-
B|-6----|---|-10----|----|-15----|-------|-20-18-17-------|-
G|------|---|-------|----|-------|-------|----------18-19-|-
D|------|---|-------|----|-------|-------|----------------|-
A|------|---|-------|----|-------|-------|----------------|-
E|------|---|-------|----|-------|-------|----------------|-
http://www.guitartabcreator.com
Guitar Tab Creator is intended to store guitar tab created through the tool. It currently does not support in-line text editing. Any text you place in here will be lost. If you need to comment on your tab, please use the "Tab Notes" section located below.