D minor 16 note pattern

(/) Slide Up  (\) Slide Down  (h) Hammer On  (p) Pull Off  (b) Bend (r) Release (v) Vibrato


E|---------------------------|---------------------------|----------------------------------|-
B|-6-5---5-6-5---5-6-5---5-6-|-8-6---6-8-6---6-8-6---6-8-|-10-8----8-10-8----8-10-8----8-10-|-
G|-----7-------7-------7-----|-----9-------9-------9-----|------10--------10--------10------|-
D|---------------------------|---------------------------|----------------------------------|-
A|---------------------------|---------------------------|----------------------------------|-
E|---------------------------|---------------------------|----------------------------------|-



E|----------------------------------------|----------------------------------------|-
B|-11-10----10-11-10----10-11-10----10-11-|-13-11----11-13-11----11-13-11----11-13-|-
G|-------12----------12----------12-------|-------14----------14----------14-------|-
D|----------------------------------------|----------------------------------------|-
A|----------------------------------------|----------------------------------------|-
E|----------------------------------------|----------------------------------------|-



E|----------------------------------------|----------------------------------------|-
B|-15-13----13-15-13----13-15-13----13-15-|-17-15----15-17-15----15-17-15----15-17-|-
G|-------15----------15----------15-------|-------17----------17----------17-------|-
D|----------------------------------------|----------------------------------------|-
A|----------------------------------------|----------------------------------------|-
E|----------------------------------------|----------------------------------------|-



E|----------------------------------------|-
B|-18-17----17-18-17----17-18-17----17-18-|-
G|-------19----------19----------19-------|-
D|----------------------------------------|-
A|----------------------------------------|-
E|----------------------------------------|-
http://www.guitartabcreator.com
Guitar Tab Creator is intended to store guitar tab created through the tool. It currently does not support in-line text editing. Any text you place in here will be lost. If you need to comment on your tab, please use the "Tab Notes" section located below.