D Major Scale

(/) Slide Up  (\) Slide Down  (h) Hammer On  (p) Pull Off  (b) Bend (r) Release (v) Vibrato

E|--------------------------|--------------------------|------------------7--9--10--|-----
B|--------------------2--3--|--------------------------|--------7--8--10------------|-----
G|--------------2--4--------|-----------------4--6--7--|--7--9----------------------|-----
D|-----2--4--5--------------|--------4--5--7-----------|----------------------------|-----
A|--5-----------------------|--5--7--------------------|----------------------------|-----
E|--------------------------|--------------------------|----------------------------|-----



E|-------------------------9--10--|----------------------------------|--
B|-----------------10--12---------|----------------------12--14--15--|--
G|------9--11--12-----------------|----------11--12--14--------------|--
D|--12----------------------------|--12--14--------------------------|--
A|--------------------------------|----------------------------------|--
E|--------------------------------|----------------------------------|--
http://www.guitartabcreator.com
Guitar Tab Creator is intended to store guitar tab created through the tool. It currently does not support in-line text editing. Any text you place in here will be lost. If you need to comment on your tab, please use the "Tab Notes" section located below.