Bm Combo

(/) Slide Up  (\) Slide Down  (h) Hammer On  (p) Pull Off  (b) Bend (r) Release (v) Vibrato

E|-----------------|-----------------|-----------------|-----------------|-
B|-----------------|-----------------|---------------2-|-3-2-------------|-
G|-----------------|---2-------------|-------2---4-2---|-----4-2---------|-
D|-------2---4-2-5-|-4---5-4-2-------|-2-5-4---5-------|---------5-4-2---|-
A|-2-5-4---5-------|-----------5-4-2-|-----------------|---------------5-|-
E|-----------------|-----------------|-----------------|-----------------|-



E|-----------------|-----------------|-----------------|-----------------|-
B|-----------------|-----------------|-----------2---3-|-2-5-3-2---------|-
G|-----------------|---2-------------|---2---4---------|---------4-2-----|-
D|-------2---4-2---|-4---5-4-2-------|-4---4---4---4---|-------------5-4-|-
A|-2-5-4---5-----5-|-----------5-4-2-|-----------------|-----------------|-
E|-----------------|-----------------|-----------------|-----------------|-



E|-----------------|---2-------------|---------------2-|---3-2-----------|-
B|-------2---3-2-5-|-3---5-3-2-------|---2---3-2-5-3---|-5-----5-3-2-----|-
G|---4-2---4-------|-----------4-2---|-2---4-----------|-------------4-2-|-
D|-5---------------|---------------5-|-----------------|-----------------|-
A|-----------------|-----------------|-----------------|-----------------|-
E|-----------------|-----------------|-----------------|-----------------|-



E|-----------------|-----------3---6-|-
B|---------------3-|---5-3-7-5---7---|-
G|---3---4-3-6-4---|-6---------------|-
D|-4---6-----------|-----------------|-
A|-----------------|-----------------|-
E|-----------------|-----------------|-
http://www.guitartabcreator.com
Guitar Tab Creator is intended to store guitar tab created through the tool. It currently does not support in-line text editing. Any text you place in here will be lost. If you need to comment on your tab, please use the "Tab Notes" section located below.