Am Rock Pattern

(/) Slide Up  (\) Slide Down  (h) Hammer On  (p) Pull Off  (b) Bend (r) Release (v) Vibrato


E|---------------------------|---------------------------|---------------------------|-
B|---------------------------|---------------------------|---------------------------|-
G|---------------------------|---------------------------|---------------------------|-
D|---------------------------|---------------------------|-2-------2-------2-------2-|-
A|-3-2---2-3-2---2-3-2---2-3-|-5-3-2-3-5-3-2-3-5-3-2-3-5-|---5-3-5---5-3-5---5-3-5---|-
E|-----5-------5-------5-----|---------------------------|---------------------------|-



E|---------------------------|---------------------------|---------------------------|-
B|---------------------------|---------------------------|---------------------------|-
G|---------------------------|---------------------------|-2-------2-------2-------2-|-
D|-3-2---2-3-2---2-3-2---2-3-|-5-3-2-3-5-3-2-3-5-3-2-3-5-|---5-3-5---5-3-5---5-3-5---|-
A|-----5-------5-------5-----|---------------------------|---------------------------|-
E|---------------------------|---------------------------|---------------------------|-



E|---------------------------|---------------------------|-
B|---------------------------|---------------------------|-
G|-4-2---2-4-2---2-4-2---2-4-|-5-4-2-4-5-4-2-4-5-4-2-4-5-|-
D|-----5-------5-------5-----|---------------------------|-
A|---------------------------|---------------------------|-
E|---------------------------|---------------------------|-
http://www.guitartabcreator.com
Guitar Tab Creator is intended to store guitar tab created through the tool. It currently does not support in-line text editing. Any text you place in here will be lost. If you need to comment on your tab, please use the "Tab Notes" section located below.