"Revenge" - Guitar Tab

(/) Slide Up  (\) Slide Down  (h) Hammer On  (p) Pull Off  (b) Bend (r) Release (v) Vibrato
E|-----------0--|-----0--------|-----0-----0--|-----------0--|-----0--------|--0-----0-----|--
B|--1--1--1--1--|-----1--0--0--|--0--0-----0--|--------------|--------------|--0-----0-----|--
G|--------------|--------------|--------------|--2--2--2-----|--------2--2--|--------------|--
D|--------------|--------------|--------------|--------------|--------------|-----------0--|--
A|--0--0--0-----|--0-----------|--------------|--------------|--------------|--------------|--
E|--------------|--------3--3--|--3-----3-----|--1--1--1-----|--1-----3--3--|-----3--------|--



E|-----0--0--0--0--|--------------|--------------|--0-----------|--0-----------|--0-----------|-----
B|-----1-----------|--3--3--3--3--|--3--3--3--3--|-----1-----1--|--1--------1--|--1-----------|-----
G|-----2-----------|--------------|--------------|--------2--2--|-----2--2--2--|--------------|-----
D|-----------------|--------------|--------------|-----2--3-----|-----3--3-----|--------------|-----
A|--------0-----0--|-----0-----3--|-----3-----3--|--------------|--------------|-----3--2--3--|--0--
E|-----------------|--------------|--------------|--------------|--------------|--------------|-----



E|--0--0--0--0--|--------------|--------------|--0-----------|--0-----------|--0-----------|-----
B|--------------|--3--3--3--3--|--3--3--3--3--|-----1-----1--|-----------1--|--1-----------|-----
G|--------------|--------------|--------------|--------2--2--|--1--2--2--2--|--------------|-----
D|--------------|--------------|--------------|-----2--3-----|-----3--3-----|--------------|-----
A|-----0-----0--|-----0-----3--|-----3-----3--|--------------|--------------|-----3--2--3--|--0--
E|--------------|--------------|--------------|--------------|--------------|--------------|-----



E|--0-----------|--------------|-----0--1--0--|--------------|--------------|-----------0--|-----
B|--1--1--1-----|--3--3--3--3--|--3-----------|--1-----------|--3--3--3--3--|--3--1--0-----|-----
G|--2--2--2-----|--------------|--------------|--------------|--------------|--------------|-----
D|--3-----------|--------------|-----3-----3--|-----3--3--3--|--3-----3-----|--3-----3-----|-----
A|--------0--3--|-----3-----3--|--------------|--------------|--------------|--------------|-----
E|--------------|--------------|--------------|--------------|--------------|--------------|-----



E|--0--0--0-----|--------------|-----0--------|-----0--------|-----5--5--7--8--|--------------
B|-----------3--|--3--3--3--3--|--3-----1-----|--1--1--------|--1--------------|--------------
G|--------------|--------------|-----------2--|--2-----2--2--|--2--------------|--------------
D|--------------|--------------|--------2--3--|--------3--3--|-----------------|--------------
A|--3-----3-----|--3-----3-----|--3-----------|--------------|-----------------|--0--0--------
E|--------------|--------------|--------------|--------------|-----------------|--------0--0--



E|-----8--7--5--|--------3--3--|--5--5--------|--------------|-----------5--|--5--7--8-----|-----
B|--8-----------|--------------|--------------|--------------|--------------|--------------|-----
G|--------------|--------------|--------------|--------------|--------------|--------------|-----
D|--------------|--------------|--------0--0--|--3--3--------|--3--3--------|--------------|-----
A|--------------|--------------|--------------|--------3--3--|--------3--0--|-----------0--|-----
E|--------------|--3--3--------|--------------|--------------|--------------|--------------|-----



E|--------------|--8--7--5-----|-----3--3--5--|--5-----------|--------------|--------------|--
B|-----------8--|--------------|--------------|--------------|--------------|-----------0--|--
G|--------------|--------------|--------------|--------------|--------------|--------------|--
D|--------------|--------------|--------------|-----0--0--3--|--3-----------|--------------|--
A|--0-----------|--------------|--------------|--------------|-----3--3--3--|--5--3--5-----|--
E|-----0--0-----|-----------3--|--3-----------|--------------|--------------|--------------|--



E|--------------|--------------|--------0-----|-----5--5--7--|--8-----------|--------8--7--|--
B|--3--3--3--3--|--3--3--3--3--|--3--3-----1--|--------------|--------------|-----8--------|--
G|--------------|--------------|--------------|--2-----------|--------------|--------------|--
D|--------------|--------------|--3--3--------|--------------|--------------|--------------|--
A|--0--0--------|--------------|--------------|-----0--------|-----0--0-----|--------------|--
E|--------------|--3--3--------|--------------|--------------|-----------0--|--0-----------|--



E|--5--------3--|--3--5--5-----|--------------|--------------|-----0--0--0--|--0-----------|--
B|--------------|--------------|--------------|--------------|--------------|-----3--3--3--|--
G|--------------|--------------|--------------|--------------|--------------|--------------|--
D|--------------|-----------0--|--0--3--3-----|--------------|--------------|--------------|--
A|--------------|--------------|-----------3--|--3--3--5--3--|--5-----0-----|--0-----0-----|--
E|-----3--3-----|--------------|--------------|--------------|--------------|--------------|--



E|--------------|-----0--------|-----0--------|-----0--------|--------0--0--|--0--0--------|--
B|--3--3--3--3--|--3-----1-----|--1--1--------|--1--1--------|--------------|--------3--3--|--
G|--------------|-----------2--|--2-----2--2--|--2-----------|--------------|--------------|--
D|--------------|--------2--3--|--------3--3--|--------------|--------------|--------------|--
A|--3-----3-----|--3-----------|--------------|--------3--2--|--3--0-----0--|-----0-----0--|--
E|--------------|--------------|--------------|--------------|--------------|--------------|--



E|--------------|--------0-----|--------0-----|--------0-----|-----------0--|--------------|--
B|--3--3--3--3--|--3--3-----1--|-----1--1-----|-----1--1-----|-----------1--|--1--1-----3--|--
G|--------------|--------------|--2--2-----2--|--2--2--------|-----------2--|--2--2--------|--
D|--------------|-----------2--|--3--------3--|--3-----------|-----------3--|--------------|--
A|-----3-----3--|-----3--------|--------------|-----------3--|--2--3--0-----|-----0--3-----|--
E|--------------|--------------|--------------|--------------|--------------|--------------|--



E|--------------|--0--1--0-----|--------------|--------------|--------3--3--|--1--0--------|--
B|--3--3--3--3--|-----------1--|-----------3--|--3--3--3--3--|--1--0--------|--------3--1--|--
G|--------------|--------------|--------------|--------------|--------------|--------------|--
D|--------------|--3-----3-----|--3--3--3--3--|-----3-----3--|-----3--------|--------------|--
A|--3-----3-----|--------------|--------------|--------------|--------3-----|--------------|--
E|--------------|--------------|--------------|--------------|--------------|--------------|--



E|--------------|--------
B|--3--3--3--3--|--3--3--
G|--------------|--------
D|--------------|--------
A|-----3-----3--|-----3--
E|--------------|--------
http://www.guitartabcreator.com
Guitar Tab Creator is intended to store guitar tab created through the tool. It currently does not support in-line text editing. Any text you place in here will be lost. If you need to comment on your tab, please use the "Tab Notes" section located below.