I won't give up- Jason Mraz (Intro)

(/) Slide Up  (\) Slide Down  (h) Hammer On  (p) Pull Off  (b) Bend (r) Release (v) Vibrato

E|--------------------------------------------------------------------------
B|--------------------------------------------------------------------------
G|-----------------4--------2--------------------------4--4-----2-----------
D|--0--0--0--2--4--5--5-----4--4--------4-----0--2--4--5--------4--4--------
A|--------------------------------------------------------------------------
E|-----------------0-----0--0-----0--0-----0-----------0-----0--0-----0--0--



E|-------------------------------------------------------------------------------
B|--------------------3-----3-------------------------3-----------3-----------2--
G|-----------2-----4--------2-------------------------2-----------2-----------2--
D|--0--0--0-----4--5--------4--4--------4-----4\2--0--------2-----------2--------
A|--------------------------0-------------------------0--0-----0--0--0-----0--0--
E|-----------------0-----0--0-----0--0-----0-------------------------------------
http://www.guitartabcreator.com
Guitar Tab Creator is intended to store guitar tab created through the tool. It currently does not support in-line text editing. Any text you place in here will be lost. If you need to comment on your tab, please use the "Tab Notes" section located below.