a py

(/) Slide Up  (\) Slide Down  (h) Hammer On  (p) Pull Off  (b) Bend (r) Release (v) Vibrato
Intro
E|--10------12--13--12----------10--
B|------11--------------11--10------
G|---------------------------------- x4
D|----------------------------------
A|----------------------------------
E|----------------------------------


Rhythm
E|--------------------------
B|--------------------------
G|--------------------------
D|-----------------------7-- x4
A|--3--2--3--2--3--5--7--5--
E|--1--0--1--0--1--3--5-----


Chorus
E|-----3--3-----
B|--2-----2--3--
G|-----------2--
D|--2--2--2-----
A|-------------- x4
E|--------------

Solo

E|--10------12--13------17--18--15-------------------12--13--15---------------------5h6-------------8--10--12--15--17--18-----
B|------11----------15--------------17p15p13---------------------5--3------------6-------8--10--11----------------------------
G|--------------------------------------------14h15--------------------5b7r5--7----------------------------------------------
D|----------------------------------------------------------------------------------------------------------------------------
A|----------------------------------------------------------------------------------------------------------------------------
E|----------------------------------------------------------------------------------------------------------------------------

Rhythm x 4
Chorus x4
Rhythm x4
Chorus x4
Outro
E|--17b18--17--18--20--15--17--18------17--18---------------------------
B|---------------------------------15----------17--15-------------------
G|-----------------------------------------------------19--19--19--19v--
D|----------------------------------------------------------------------
A|----------------------------------------------------------------------
E|----------------------------------------------------------------------
http://www.guitartabcreator.com
Guitar Tab Creator is intended to store guitar tab created through the tool. It currently does not support in-line text editing. Any text you place in here will be lost. If you need to comment on your tab, please use the "Tab Notes" section located below.