a mix

(/) Slide Up  (\) Slide Down  (h) Hammer On  (p) Pull Off  (b) Bend (r) Release (v) Vibrato


E|----------------------------------------------------7--9--10--12--10-----------------------------
B|------------------------------------------7--8--10--------------------12--10---------------------
G|--------------------------------7--9--11--------------------------------------12--11-------------
D|----------------------7--9--11--------------------------------------------------------12--11-----
A|------------7--9--10-----------------------------------------------------------------------------
E|--7--9--10---------------------------------------------------------------------------------------



E|----------------------------------------------------------10--12--10--9--7-------------------------
B|--------------------------------------------------10--12--------------------10--8--7---------------
G|------------------------------------------11--12--------------------------------------11--9--7-----
D|----------------------------------11--12-----------------------------------------------------------
A|--12--10------------------10--12-------------------------------------------------------------------
E|----------12--10--10--12---------------------------------------------------------------------------



E|----------------------------------------------------------------------------------------
B|----------------------------------------------------------------------------------------
G|--------------------------------------------------------------------------12--11--9--7--
D|--11--9--7--------------------------------------------------12--11--9--7----------------
A|------------10--9--7--------------------------12--10--9--7------------------------------
E|----------------------10--9--7--12--10--9--7--------------------------------------------



E|------------------------------12--10--9--7--7--9--10--12------------------------------
B|----------------12--10--8--7------------------------------7--8--10--12----------------
G|--12--11--9--7----------------------------------------------------------7--9--11--12--
D|--------------------------------------------------------------------------------------
A|--------------------------------------------------------------------------------------
E|--------------------------------------------------------------------------------------



E|------------------------------------------------------------15------14------
B|------------------------------------------------15--------------14------14--
G|----------------------------------------------------14--12------------------
D|--7--9--11--12------------------------------12------------------------------
A|----------------7--9--10--12------------------------------------------------
E|------------------------------7--9--10--12----------------------------------
http://www.guitartabcreator.com
Guitar Tab Creator is intended to store guitar tab created through the tool. It currently does not support in-line text editing. Any text you place in here will be lost. If you need to comment on your tab, please use the "Tab Notes" section located below.