a min pent

(/) Slide Up  (\) Slide Down  (h) Hammer On  (p) Pull Off  (b) Bend (r) Release (v) Vibrato


E|--------0-----------0-----------0-----------0-----------0-----------0-----0--
B|-----------3-----------3-----------3-----------1-----------1-----------1--1--
G|-----2-----------2-----------2-----------2-----------2-----------2--------2--
D|--0-----------0-----------0-----------0-----------0-----------0-----------0--
A|-----------------------------------------------------------------------------
E|-----------------------------------------------------------------------------



E|--------------------------------------------------------------------------------------------------
B|--------------------------------------------------------------------------------------------------
G|--------------------------------------------------------------------------------------------------
D|--------------------------------------------------------------10--------------------------12--12--
A|--5--5--5--5--5--5--5--5--7--7--7--7--7--7--7--7--10--10--10--10--10--10--10--10--12--12--12--12--
E|--3--3--3--3--3--3--3--3--5--5--5--5--5--5--5--5--8---8---8---8---8---8---8---8---10--10--10--10--



E|--
B|--
G|--
D|--
A|--
E|--
http://www.guitartabcreator.com
Guitar Tab Creator is intended to store guitar tab created through the tool. It currently does not support in-line text editing. Any text you place in here will be lost. If you need to comment on your tab, please use the "Tab Notes" section located below.