lydian riffs

(/) Slide Up  (\) Slide Down  (h) Hammer On  (p) Pull Off  (b) Bend (r) Release (v) Vibrato
E|----------------------------------------------------
B|--------------5--7---------------9--11--5--7--------
G|--------3--4--------6--8--9--11---------------6--8--
D|--2--4---------------------------------------------- e lydian
A|----------------------------------------------------
E|----------------------------------------------------



E|------------------------------------------------------
B|--------4--5--------------10--12----------------------
G|--2--4----------------------------11--13--------8--9--
D|------------------------------------------7--9--------
A|--------------------6--7------------------------------ a lydian
E|--------------5--7------------------------------------



E|-------------------------------------------------
B|--------------------7--8-------------------------
G|--------------5--7-------------------------------
D|--------4--5-------------------------------5--5-- c lydian
A|--3--5---------------------------9--10--3-----3--
E|--------------------------8--10------------------



E|--3p2--------------------------------------15--14--12------------------
B|-------3-----8--10-------------------------------------14--------------
G|----------4---------9--11--12--14-------------------------------------- g lydian
D|-----------------------------------16--14------------------------------
A|-----------------------------------------------------------------4--5--
E|-----------------------------------------------------------3--5--------
http://www.guitartabcreator.com
Guitar Tab Creator is intended to store guitar tab created through the tool. It currently does not support in-line text editing. Any text you place in here will be lost. If you need to comment on your tab, please use the "Tab Notes" section located below.