a lyd licks 2 rows then a min pen 2 rows then a maj pen 2 rows then a blues 2 rows then a lyd solo

(/) Slide Up  (\) Slide Down  (h) Hammer On  (p) Pull Off  (b) Bend (r) Release (v) Vibrato
E|----------9--11--|-------------|--------------|-----------------11---------
B|--10--12---------|--------5p4--|--------------|--10------12--9------10-----
G|-----------------|--2--4-------|--------------|------11--------------------
D|-----------------|-------------|--------------|----------------------------
A|-----------------|-------------|--------6--4--|----------------------------
E|-----------------|-------------|--5--7--------|----------------------------



E|--17h19p17------------------|----------14------------|--
B|------------19--17--19------|--10--12----------------|--
G|------------------------14--|--------------13h14p13--|--
D|----------------------------|------------------------|--
A|----------------------------|------------------------|--
E|----------------------------|------------------------|--



E|----------10--12--|--17h20p17----------------------|-------------------|---------------
B|--10--13----------|------------20--17--20----------|----------20-------|---------------
G|------------------|------------------------17------|------21------19v--|---------7--9--
D|------------------|----------------------------19--|--19---------------|--7--10--------
A|------------------|--------------------------------|-------------------|---------------
E|------------------|--------------------------------|-------------------|---------------



E|--------------|--------------------|--
B|--------------|--------------------|--
G|--------------|--------------------|--
D|--------------|--------------------|--
A|--------7--5--|--0--3--0-----0--3--|--
E|--5--8--------|-----------5--------|--



E|----------9--12--|---------------------------|------------------------------------|--
B|--10--12---------|----------17--14--12--10v--|------------------------------------|--
G|-----------------|--14--16-------------------|------------------------------------|--
D|-----------------|---------------------------|------------------------------------|--
A|-----------------|---------------------------|--0--4--7--0--4--7--0--4--7--0h4b7--|--
E|-----------------|---------------------------|------------------------------------|--



E|---------------------------|--5h7-----9--|--------5h7p5--|--
B|----------17--12--14--10v--|-------7-----|---------------|--
G|--14--16-------------------|-------------|--2--6---------|--
D|---------------------------|-------------|---------------|--
A|---------------------------|-------------|---------------|--
E|---------------------------|-------------|---------------|--



E|--------------10v--|--------------------------------------|--------------5--8--5-----|-----
B|--10------13-------|--------------------------------------|-----------------------8--|-----
G|------12-----------|--------------------------------------|--------------------------|-----
D|-------------------|-----19--17---------------------------|--7-----------------------|-----
A|-------------------|-------------18--18--18--18--18-------|-----5--6-----------------|-----
E|-------------------|---------------------------------17v--|-----------5--------------|-----



E|-----------------------|--17--15-------------|----------------------|--10h11p10--8----------|--
B|-----------------------|----------16---------|----------------------|---------------10------|--
G|-----------------------|--------------17b19--|----------------7-----|-------------------7v--|--
D|--7--5-----------------|---------------------|-------------7-----7--|-----------------------|--
A|--------6--3-----------|---------------------|--12--10--6-----------|-----------------------|--
E|--------------5--3--5--|---------------------|----------------------|-----------------------|--



E|-----------------5--7--9------12p11p9------------------------------------------------------
B|--------------------------10-----------10--12-------------------------------------12--10v--
G|--------6--8--9--------------------------------11h13b14-------------------13--11-----------
D|--7--9-------------------------------------------------------14--13--11v-------------------
A|---------------------------------------------------------12--------------------------------
E|-------------------------------------------------------------------------------------------



E|----------17p16p14--------------17b19--17h19p17------------------17--14--17--17--
B|------16------------19------19-------------------19--17----------17--14--17--17--
G|--14--------------------18-------------------------------18--14--------------14--
D|---------------------------------------------------------------------------------
A|---------------------------------------------------------------------------------
E|---------------------------------------------------------------------------------
http://www.guitartabcreator.com
Guitar Tab Creator is intended to store guitar tab created through the tool. It currently does not support in-line text editing. Any text you place in here will be lost. If you need to comment on your tab, please use the "Tab Notes" section located below.