g lyd riff

(/) Slide Up  (\) Slide Down  (h) Hammer On  (p) Pull Off  (b) Bend (r) Release (v) Vibrato

E|-------------------------------------------
B|----------------------------------5h7p5p0--
G|--12--9--7v--12--9--7--11--9--7v-----------
D|-------------------------------------------
A|-------------------------------------------
E|-------------------------------------------



E|---------------------------------------------------------14h17p14h17p14h17p14h17p14---------
B|--12--14--15--14v--12--14--15--14v--12--14--15--17--14v------------------------------15b17--
G|--------------------------------------------------------------------------------------------
D|--------------------------------------------------------------------------------------------
A|--------------------------------------------------------------------------------------------
E|--------------------------------------------------------------------------------------------



E|--------------------------------------------------------------------------------------------2b5--
B|-----------------------------------------------------------------------------------------3-------
G|--------------------------------------------------------------------------------------4----------
D|--------------------------------------5--4--0--2--5--4--0--2--5--4--0--2--5--4--0--2-------------
A|--5--4--0--2--5--4--0--2--5--4--0--2-------------------------------------------------------------
E|-------------------------------------------------------------------------------------------------



E|-------------------------------------------------------------------------------
B|-------------------------------------------------------------------------------
G|---------------------------------------------------------------------------11--
D|--------------------------------------------------------------------11---------
A|------------------------------------------------------------------------9------
E|--0--0--0--0--0--7--5--3--0--0--0--0--0--3--5--7--0--0--0--0--0--9-------------
http://www.guitartabcreator.com
Guitar Tab Creator is intended to store guitar tab created through the tool. It currently does not support in-line text editing. Any text you place in here will be lost. If you need to comment on your tab, please use the "Tab Notes" section located below.