fuck sake lydian

(/) Slide Up  (\) Slide Down  (h) Hammer On  (p) Pull Off  (b) Bend (r) Release (v) Vibrato
E|--------0-----------------------0-----------------------0-----------------------0-----------------
B|--------0-----3-----3--3--------0-----3-----3--3--------0-----3-----3--3--------0-----3-----3--3--
G|--------0--------------2--------0--------------2--------0--------------2--------0--------------2--
D|--------0--2-----2--------------0--2-----2--------------0--2-----2--------------0--2-----2--------
A|--------2--2--2--2--------------2--2--2--2--------------2--2--2--2--------------2--2--2--2--------
E|--2--3--0--0--------3--2--2--3--0--0--------3--2--2--3--0--0--------3--2--2--3--0--0--------3--2--



E|---------------------------------------------------------------------------12--12-----------------
B|-----------------------------------------------------------12--13--15--10--10--10-----------------
G|--------------------------------------------------------------------------------------------------
D|---------------7--7---------------7--7--7--9---------7--7--------------------------9--------7--7--
A|--7--9--10--5--5--5------------5--5--5--------10--5--5--5-----------------------------7--5--5--5--
E|---------------------7--8--10---------------------------------------------------------------------



E|--------0-----------------------0-----------------------0-----------------------0-----------------
B|--------0-----3-----3--3--------0-----3-----3--3--------0-----3-----3--3--------0-----3-----3--3--
G|--------0--------------2--------0--------------2--------0--------------2--------0--------------2--
D|--------0--2-----2--------------0--2-----2--------------0--2-----2--------------0--2-----2--------
A|--------2--2--2--2--------------2--2--2--2--------------2--2--2--2--------------2--2--2--2--------
E|--2--3--0--0--------3--2--2--3--0--0--------3--2--2--3--0-----------3--2--2--3--0-----------3--2--



E|---------------------------------------------------------------------------12--12-----------------
B|-----------------------------------------------------------12--13--15--10--10--10-----------------
G|--------------------------------------------------------------------------------------------------
D|---------------7--7---------------7--7--7--9---------7--7--------------------------9--------7--7--
A|--7--9--10--5--5--5------------5--5--5--------10--5--5--5-----------------------------7--5--5--5--
E|---------------------7--8--10---------------------------------------------------------------------



E|------------------------15--14--12----------12--10h12--------------------------------------------
B|--13b15--13--13--13b15------------------13-------------------------------------------------------
G|------------------------------------14-----------------11b14--11--11b14--11v--14--14--14--14-----
D|-------------------------------------------------------------------------------------------------
A|-------------------------------------------------------------------------------------------------
E|-------------------------------------------------------------------------------------------------



E|---------------10------------------------------------------------------------14--12--10p8p7-----
B|-------------------8h10p8h10p8h10p8h10p8--12--13--15-----------------15--13---------------------
G|-----11--9--7------------------------------------------------16--14-----------------------------
D|--9---------------------------------------------------14h16-------------------------------------
A|------------------------------------------------------------------------------------------------
E|------------------------------------------------------------------------------------------------



E|-----------------------------------------------------------------------------------------------
B|--15----------17--19--15v--12v---------------------7h8-----------------------------------------
G|------17--16--------------------9v--7v----------5-------7v--11--11--12--12--14--12--14--12-----
D|----------------------------------------5v--2v-------------------------------------------------
A|-----------------------------------------------------------------------------------------------
E|-----------------------------------------------------------------------------------------------
http://www.guitartabcreator.com
Guitar Tab Creator is intended to store guitar tab created through the tool. It currently does not support in-line text editing. Any text you place in here will be lost. If you need to comment on your tab, please use the "Tab Notes" section located below.