e phy jan 2013

(/) Slide Up  (\) Slide Down  (h) Hammer On  (p) Pull Off  (b) Bend (r) Release (v) Vibrato
E|----------------------12h13p12h13p12h13p12----------------------13p12h13p12h13p12--
B|--15--13--12--13--15------------------------15--13--12--13--15---------------------
G|-----------------------------------------------------------------------------------
D|-----------------------------------------------------------------------------------
A|-----------------------------------------------------------------------------------
E|-----------------------------------------------------------------------------------



E|--1--------1-----------------1--------1-----------------7------------------------
B|--1--------------------------1--------------------------5------------------------
G|--2-----------------------4--2-----------------------4-----------------------4v--
D|--2-----2--3-----------------2-----2--3-----------------------2------------------
A|-----2--2--3--5--3--5--3--------2--2--3--5--3--5--3--------7--2--5--3--5--3------
E|-----3--------------------------3--------------------------5--0------------------



E|--5--5--5--5--5--5--5--5--7--7--7--------------1--1--1--1-----------------------------------5-----
B|--5--5--5--5--3--3--3--3--5--5--5--------------1--1--1--1-----------------------------------------
G|--2--2--2--2-----------------------------------------------2--2--2--2--2--2--2--2-----------------
D|-----------------------------------2--2--2--2--------------2--2--2--2--2--2--2--2-----------------
A|-----------------------------------2--2--2--2--2--2--2--2--------------2--2--2--2--5--3--5--------
E|-----------------------------------0--0--0--0--3--3--3--3-----------------------------------------



E|-------------12h13p12---------------------10--7--8--13--12--10--------------------------
B|---------13------------13--------------8------------------------12--13-----10-----------
G|--12h14--------------------14--12h14v-----------------------------------9------12--10v--
D|----------------------------------------------------------------------------------------
A|----------------------------------------------------------------------------------------
E|----------------------------------------------------------------------------------------



E|----------12--13b15--13b15--13--12b13--|-----------------|--15--------------|-----------------
B|------13-------------------------------|--18p17----------|------13----------|--15------12h13--
G|--12-----------------------------------|---------19b21v--|----------12h14v--|------14---------
D|---------------------------------------|-----------------|------------------|-----------------
A|---------------------------------------|-----------------|------------------|-----------------
E|---------------------------------------|-----------------|------------------|-----------------



E|-----------------|--5--5--5--5--5--5--7--7--7--7--7--7--10--10--10--10--10--10--12--12--12--12--12--
B|--15-------------|--3--3--3--3--3--3--5--5--5--5--5--5--8---8---8---8---8---8---10--10--10--10--10--
G|------14---------|----------------------------------------------------------------------------------
D|----------12h14--|----------------------------------------------------------------------------------
A|-----------------|----------------------------------------------------------------------------------
E|-----------------|----------------------------------------------------------------------------------
http://www.guitartabcreator.com
Guitar Tab Creator is intended to store guitar tab created through the tool. It currently does not support in-line text editing. Any text you place in here will be lost. If you need to comment on your tab, please use the "Tab Notes" section located below.